Player Rankings

Player Rankings

RankPlayerAvg RankAuction Value ($)Michael FabianoMarcas GrantAdam Rank
1----------
2----------
3----------
45.00--5----
518.00------18
620.00--20----
7
Jamal Agnew DB - DET LP
----------
8
Walt Aikens DB - MIA
----------
9----------
10----------
11
Mackensie Alexander DB - MIN FP
----------
12----------
13----------
14
Brian Allen DB - PIT
----------
15----------
16----------
17
Adrian Amos DB - CHI
17.00--17----
18----------
19
Troy Apke DB - WAS DNP
----------
20
Eli Apple DB - NYG DNP View News
----------
21----------
22
Anthony Averett DB - BAL
----------
23----------
24
Johnson Bademosi DB - HOU FP
----------
2511.00--11----
26
Chris Banjo DB - NO
----------
27----------
28----------
29----------
30----------