Player Rankings

Player Rankings

RankPlayerAvg RankAuction Value ($)Michael FabianoMarcas GrantAdam Rank
12.00--2----
2
J.J. Watt DL - HOU
2.50--1--4
33.00--3----
4
Khalil Mack DL - OAK NWT
3.00--5--1
5
Melvin Ingram DL - LAC
4.00--4----
66.00--6----
76.00------6
87.50--13--2
98.00--8----
10
Carlos Dunlap DL - CIN
9.00--10--8
11
Everson Griffen DL - MIN
9.00--9----
129.50--12--7
1310.00------10
14
Chandler Jones DL - ARI
10.50--7--14
15
Kawann Short DL - CAR
11.00------11
16
Ezekiel Ansah DL - DET
11.50--18--5
17
Geno Atkins DL - CIN
12.00------12
18
Fletcher Cox DL - PHI
13.50--24--3
1914.00--14----
2014.50--11--18
21
Cameron Heyward DL - PIT
15.00--15--15
22
Jurrell Casey DL - TEN
16.00------16
23
Yannick Ngakoue DL - JAX
16.00--16----
24
Akiem Hicks DL - CHI
17.00--17----
25
Michael Bennett DL - PHI
19.00------19
26
Trey Flowers DL - NE
19.00--19----
2719.00--25--13
28
Robert Quinn DL - MIA
20.00--20----
29
Frank Clark DL - SEA
21.00--21----
3021.00------21