Player Rankings

Player Rankings

RankPlayerAvg RankAuction Value ($)Michael FabianoMarcas GrantGraham BarfieldAdam Rank
1
J.J. Watt DL - HOU
2.50--1----4
2
Joey Bosa DL - LAC
2.00--2------
33.00--3------
4
Melvin Ingram DL - LAC
4.00--4------
56.00--6------
6
Chandler Jones DL - ARI
10.50--7----14
7
Danielle Hunter DL - MIN
8.00--8------
8
Everson Griffen DL - MIN
9.00--9------
9
Carlos Dunlap DL - CIN
9.00--10----8
1014.50--11----18
11
Calais Campbell DL - JAX
9.50--12----7
12
Aaron Donald DL - LA
7.50--13----2
13
Brandon Graham DL - PHI
14.00--14------
14
Cameron Heyward DL - PIT
15.00--15----15
15
Yannick Ngakoue DL - JAX
16.00--16------
16
Akiem Hicks DL - CHI
17.00--17------
17
Ezekiel Ansah DL - DET
11.50--18----5
18
Trey Flowers DL - NE
19.00--19------
19
Robert Quinn DL - MIA
20.00--20------
2021.00--21------
21
Jabaal Sheard DL - IND
22.00--22------
22
Myles Garrett DL - CLE
23.00--23------
23
Fletcher Cox DL - PHI
13.50--24----3
2419.00--25----13
25
Vinny Curry DL - TB
26.00--26------
26
Stephon Tuitt DL - PIT
22.00--27----17
2728.00--28------
28
Mario Addison DL - CAR
29.00--29------
29
Cameron Wake DL - MIA
30.00--30------
30
Sam Acho DL - CHI
------------