Player Rankings

Player Rankings

RankPlayerAvg RankAuction Value ($)Michael FabianoMarcas GrantGraham BarfieldAdam Rank
1
J.J. Watt DL - HOU
2.50--1----4
23.00--3------
3
Melvin Ingram DL - LAC
4.00--4------
46.00--------6
5
Aaron Donald DL - LA
7.50--13----2
6
Carlos Dunlap DL - CIN
9.00--10----8
7
Everson Griffen DL - MIN
9.00--9------
89.50--12----7
9
Kawann Short DL - CAR
11.00--------11
10
Ezekiel Ansah DL - SEA
11.50--18----5
11
Geno Atkins DL - CIN
12.00--------12
12
Fletcher Cox DL - PHI
13.50--24----3
13
Brandon Graham DL - PHI
14.00--14------
1414.50--11----18
15
Cameron Heyward DL - PIT
15.00--15----15
16
Jurrell Casey DL - TEN
16.00--------16
1719.00--------19
18
Jerry Hughes DL - BUF
22.00--------22
19
Stephon Tuitt DL - PIT
22.00--27----17
2024.00--------24
2129.00--------29
22------------
23
Mario Addison DL - CAR
------------
24
Pat Afriyie DL - LAC
------------
25
Ricky Ali'ifua DL - SEA
------------
26
Beau Allen DL - TB
------------
27
Jonathan Allen DL - WAS
------------
28
Zach Allen DL - ARI
------------
29
Tyson Alualu DL - PIT
------------
30------------