Player Rankings

Player Rankings

RankPlayerAvg RankAuction Value ($)Michael FabianoMarcas GrantAdam Rank
1----------
2----------
3----------
45.00--5----
5
Mike Adams DB - CAR
18.00------18
6
Jahleel Addae DB - LAC
20.00--20----
7
Jamal Agnew DB - DET
----------
8
Walt Aikens DB - MIA
----------
9
Adonis Alexander DB - WAS IA
----------
10----------
11----------
12----------
13----------
14
Brian Allen DB - PIT
----------
15----------
16----------
1717.00--17----
18----------
19
Troy Apke DB - WAS IA
----------
20
Eli Apple DB - NYG IA
----------
21----------
22
Anthony Averett DB - BAL
----------
23
Chidobe Awuzie DB - DAL
----------
24----------
2511.00--11----
26
Chris Banjo DB - NO
----------
27----------
28----------
29----------
30----------