Player Rankings

Player Rankings

RankPlayerAvg RankAuction Value ($)Michael FabianoMarcas GrantAdam Rank
1
Joey Bosa DL - LAC
2.00--2----
2
J.J. Watt DL - HOU
2.50--1--4
33.00--3----
44.00--4----
56.00--6----
66.00------6
77.50--13--2
88.00--8----
9
Carlos Dunlap DL - CIN
9.00--10--8
10
Everson Griffen DL - MIN
9.00--9----
119.50--12--7
12
Olivier Vernon DL - NYG
10.00------10
13
Chandler Jones DL - ARI
10.50--7--14
14
Kawann Short DL - CAR
11.00------11
15
Ezekiel Ansah DL - DET
11.50--18--5
16
Geno Atkins DL - CIN
12.00------12
1713.50--24--3
18
Brandon Graham DL - PHI
14.00--14----
1914.50--11--18
2015.00--15--15
21
Jurrell Casey DL - TEN
16.00------16
22
Yannick Ngakoue DL - JAX
16.00--16----
23
Akiem Hicks DL - CHI
17.00--17----
24
Michael Bennett DL - PHI
19.00------19
25
Trey Flowers DL - NE
19.00--19----
2619.00--25--13
27
Robert Quinn DL - MIA
20.00--20----
2821.00--21----
2921.00------21
3022.00------22